Accords et paroles Octopus's Garden The Beatles

Octopus's Garden

The Beatles

-1
+1
Suggestion: -2

(supprime les barrés)

Tous les outils
annuler
Change la taille du texte.
NON
OUI
Remplace par des accords plus faciles à jouer.
EN
FR
Affiche les acccords français (Do, Ré, Mi…).
NON
OUI
Seul le bas du texte défile, vous laissant ainsi les accords de départ visibles.
NON
OUI
Certaines partitions n’affichent les accords qu’au début. Cet outil tente de les recopier dans l’ensemble du texte.
Marque le tempo à la vitesse que vous souhaitez.
E--------------------------------------------12------------------
B--------------14-12----------------------------14-12---------10-
G------9-11-13-------13-11-9-13------9-11-13----------13-11-9-11-
D-9-11--------------------------9-11-----------------------------
A----------------------------------------------------------------
E----------------------------------------------------------------
E-----------------------------------------------------
B-11-12-14-12-----------------------------------------
G-12-13-------13-11-9-9-11-9--------------------------
D----------------------------11-9---------------------
A---------------------------------11-9-7-7-9-7--------
E----------------------------------------------7-7-7--
  I'd like to be  under the sea
 In an Octopus's Garden in the shade.
  He'd let us in  knows where we've been
 In his Octopus's Garden in the shade.
  I'd ask my friends to come and see
  An Octopus's Garden with me.
  I'd like to be  under the sea
 In an Octopus's Garden in the shade.
  We would be warm   below the storm
 In our little hideaway beneath the waves.
  Resting our head   on the sea bed
 In an Octopus's Garden near a cave.
  We would sing and dance around
  Because we know we can't be found.
  I'd like to be   under the sea
 In an Octopus's Garden in the shade.
   Instrumental :
  We would shout   and swim about
 The coral that lies beneath the waves.
  Oh what joy   for every girl and boy
  Knowing they're happy and they're safe.
  We would be so happy you and me.
  No one there to tell us what to do.
  I'd like to be   under the sea
 In an Octopus's Garden with you
 In an Octopus's Garden with you
 In an Octopus's Garden with you
E-16-14-12-----------------------
B----------14-12-----------------
G----------------13-11-9-11-9-13-
---------------------------------
---------------------------------
---------------------------------

Octopus's Garden

The Beatles

D'autres partitions à jouer…