Accords et paroles Punchdrunk Lovesick Singalong Radiohead

Punchdrunk Lovesick Singalong

Radiohead

-1
+1
Suggestion: -3

(moins de barrés)

Tous les outils
annuler
Change la taille du texte.
NON
OUI
Remplace par des accords plus faciles à jouer.
EN
FR
Affiche les acccords français (Do, Ré, Mi…).
NON
OUI
Seul le bas du texte défile, vous laissant ainsi les accords de départ visibles.
NON
OUI
Certaines partitions n’affichent les accords qu’au début. Cet outil tente de les recopier dans l’ensemble du texte.
Marque le tempo à la vitesse que vous souhaitez.
 Intro:
gtr.1
    
e|------------------15--13----------|
B|------13------13----------14--13--|
G|--13------13----------------------|
D|----------------------------------|
A|----------------------------------|
E|----------------------------------|
    
e|------------------14--12----------|
B|------12------12----------13--12--|
G|--12------12----------------------|
D|----------------------------------|
A|----------------------------------|
E|----------------------------------|
gtr.2
                                                            
e|-------|--------------|-------|-------|--------|--------------|-------|
B|-------|--------------|-------|-------|--------|--------------|-------|
G|-------|---------3--3s4-------|-------|--------|---------3--3s4-------|
D|--3----|-3----6-------|-------|-------|-3----2-|-3----6-------|-------|
A|-------|--------------|-------|-------|--------|--------------|-------|
E|-------|--------------|-------|-------|--------|--------------|-------|
(here the string must be already bent up when picking each note and so then bend down)
e|----------------------------------------------------------------------|
B|---------5^----------7^----------9^-----------11^----------12~--------|
G|----------------------------------------------------------------------|
D|----------------------------------------------------------------------|
A|----------------------------------------------------------------------|
E|----------------------------------------------------------------------|
Verse 1:
   I wrapped you inside my coat
   When they came to firebomb the house
   I didn’t feel a thing cause no one can touch me
   Now that I’m under your spell
e|----------------------------------------------------------------------|
B|--11^--9------9------11^---9-----9--11--9--11--11 s12~~---------------|
G|----------10-----10---------------------------------------------------|
D|----------------------------------------------------------------------|
5|----------------------------------------------------------------------|
E|----------------------------------------------------------------------|
   A beautiful girl a beautiful girl
   Can turn your world into dust
Verse 2:
   Sell me a car that starts
   Sell me a house that stands
   I never cared before I never cared before
   I never cared before
   before before
   before
Chorus 2x
Solo:
Verse 3/End:
   I stood in front of her face
   When the first bullet was shot.

Punchdrunk Lovesick Singalong

Radiohead

D'autres partitions à jouer…