Accords et paroles My Iron Lung Radiohead

My Iron Lung

Radiohead

-1
+1
Suggestion: +2

(moins de barrés)

Tous les outils
annuler
Change la taille du texte.
NON
OUI
Remplace par des accords plus faciles à jouer.
EN
FR
Affiche les acccords français (Do, Ré, Mi…).
NON
OUI
Seul le bas du texte défile, vous laissant ainsi les accords de départ visibles.
NON
OUI
Certaines partitions n’affichent les accords qu’au début. Cet outil tente de les recopier dans l’ensemble du texte.
Marque le tempo à la vitesse que vous souhaitez.
   Intro:
E|---------------------|
B|-----3--0------------|
G|---0-----------------|
D|-5-------------------|
A|---------------------|
E|---------------------|
E|---------------------|
B|-----0---------------|
G|---0-----------------|
D|-3-------------------|
A|---------------------|
E|---------------------|
E|---------------------|
B|-------1-------------|
G|-----0--0-2~0--------|
D|-1-3-----------------|
A|---------------------|
E|---------------------|
E|---------------------|
B|-----3--0------------|
G|---0-----------------|
D|-5-------------------|
A|---------------------|
E|---------------------|
E|---------------------|
B|-----0---------------|
G|---0-----------------|
D|-3-------------------|
A|---------------------|
E|---------------------|
E|---------------------|
B|---------1-/-4-------|
G|--------2-/-5--------|
D|-1-3---1-/-4---------|
A|---------------------|
E|---------------------|  
E|---------------------|
B|-----3--0------------|
G|---0-----------------|
D|-5-------------------|
A|---------------------|
E|---------------------|
E|---------------------|
B|-----0---------------|
G|---0-----------------|
D|-3-------------------|
A|---------------------|
E|---------------------|
E|---------------------|
B|-------1-4-5-4-1-0---|
G|-----0---------------|
D|-1-3-----------------|
A|---------------------|
E|---------------------|
Segunda Parte
Faith you’re driving me away
You do it everyday
You don’t mean it
But it hurts like hell
My brain says I’m recieving pain
A lack of oxygen
From my life support
My iron lung
(Intro)
We’re too young to fall asleep
To cynical to speak
We are losing it
Can’t you tell?
We scratch our eternal itch
A twentieth century bitch
And we are grateful for
Our iron lung
E|---------------------|
B|-----3--0------------|
G|---0-----------------|
D|-5-------------------|
A|---------------------|
E|---------------------|
E|---------------------|
B|-----0---------------|
G|---0-----------------|
D|-3-------------------|
A|---------------------|
E|---------------------|
E|---------------------|
B|-------1-------------|
G|-----0--0-2h0--------|
D|-1-3-----------------|
A|---------------------|
E|---------------------|
E|---------------------|
B|-----3--0------------|
G|---0-----------------|
D|-5-------------------|
A|---------------------|
E|---------------------|
E|---------------------|
B|-----0---------------|
G|---0-----------------|
D|-3-------------------|
A|---------------------|
E|---------------------|
E|---------------------|
B|-------1-------------|
G|-----0---------------|
D|-1-3-----------------|
A|---------------------|
E|---------------------|
Terceira Parte:  
E|-------------------------------------------------|
B|-8-7-6-5-4-3-------------------------------------|
G|-7-6-5-4-3-2-------------------------------------|
D|-------------------------------------------------|
A|-7-6-5-4-3-2-------------------------------------|
E|-------------------------------------------------|
(              )
The head shrinkers         
They want everything
My uncle Bill
My belisha beacon
The head shrinkers       
They want everything    
My uncle Bill         
My belisha beacon
Quarta Parte:
Suck suck your teenage thumb
Toilet trained and dumb
When the power runs out
We’ll just hum
This this is our new song
Just like the last one
A total waste of time
My iron lung
E|-------------------------------------------------|
B|-8-7-6-5-4-3-------------------------------------|
G|-7-6-5-4-3-2-------------------------------------|
D|-------------------------------------------------|
A|-7-6-5-4-3-2-------------------------------------|
E|-------------------------------------------------|
(       )
The head shrinkers         
They want everything
My uncle Bill          
My belisha beacon
The head shrinkers      
They want everything
My uncle Bill       
My belisha beacon
(        )
And if you’re frightened
You can be frightened
You can be it’s ok
And if you’re frightened
You can be frightened
You can be it’s ok
(       )
The head shrinkers       
They want everything
My uncle Bill
My belisha beacon

My Iron Lung

Radiohead

D'autres partitions à jouer…