Accords et paroles Man Of War Radiohead

Man Of War

Radiohead

-1
+1
Tous les outils
annuler
Change la taille du texte.
NON
OUI
Remplace par des accords plus faciles à jouer.
EN
FR
Affiche les acccords français (Do, Ré, Mi…).
NON
OUI
Seul le bas du texte défile, vous laissant ainsi les accords de départ visibles.
NON
OUI
Certaines partitions n’affichent les accords qu’au début. Cet outil tente de les recopier dans l’ensemble du texte.
Marque le tempo à la vitesse que vous souhaitez.
   Intro
                                                            
E|----------7p5--------|----------7p5--------|----------7p5--------|----------7p5--------|
B|----5---5-------5----|----4---4-------4----|----3---3-------3----|----4---4-------4----|
G|--5---5-------5---5--|--5---5-------5---5--|--5---5-------5---5--|--5---5-------5---5--|
D|---------------------|---------------------|---------------------|---------------------| x3
A|---------------------|---------------------|---------------------|---------------------|
E|---------------------|---------------------|---------------------|---------------------|
Verse 1:
   Drift all you like
From ocean to ocean  
Search the whole world
But drunken confessions
And hijacked affairs
Will just make you more alone              
Verse 2:
   When you come home
I’ll bake you a cake
Made of all their eyes
I wish you could see me
Dressed for the kill
You’re my man of war        
You’re my man of war        
Yeah the worms will come      
For you   
Big boots  
                                                                  
E|-----0-----------------|-----0-----------------|-----0-----------------|-----------------------|
B|-----1---1-3-1--0---1--|-----1---1-3-1--0---1--|-----1---1-3-1--0---1--|--1-0------------------|
G|--2--2------------2----|--2--2------------2----|--2--2------------2----|-------2-0-------------|
D|--2--2-----------------|--1--1-----------------|--0--0-----------------|------------2p0--------|
A|--0--------------------|--0--------------------|--0--------------------|----------------3p2-0--|
E|-----------------------|-----------------------|-----------------------|-----------------------|
                                           
E|--12b14br12-10----------------------------|--------------------------------------12--|
B|----------------12b14br12-10------10--12| â??|--12b13br12--12b13br12â??12b13br12--10------|
G|------------------------------11----------|------------------------------------------|
D|------------------------------------------|------------------------------------------| x2
A|------------------------------------------|------------------------------------------|
E|------------------------------------------|------------------------------------------|
Verse 3:
   So unplug the phones
Stop all the taps
It all comes flooding back
From poisoned clouds
To poisoned dwarves
You’re my man of war        
You’re my man of war        
Yeah the worms will come      
For you   
Big boots  
Final
Yeah the worms will come      
For you   
Big boots  
For you   
Big boots  

Man Of War

Radiohead

D'autres partitions à jouer…