Accords et paroles Was It All Worth It Queen

Was It All Worth It

Queen

-1
+1
Suggestion: -5

(supprime les barrés)

Tous les outils
annuler
Change la taille du texte.
NON
OUI
Remplace par des accords plus faciles à jouer.
EN
FR
Affiche les acccords français (Do, Ré, Mi…).
NON
OUI
Seul le bas du texte défile, vous laissant ainsi les accords de départ visibles.
NON
OUI
Certaines partitions n’affichent les accords qu’au début. Cet outil tente de les recopier dans l’ensemble du texte.
Marque le tempo à la vitesse que vous souhaitez.
Artist: Queen
Song: Was it all Worth it
Album: The Miracle
Year: 1989
Worked on this one a while back but never finished or submitted it so here it is.  Enjoy!
What is there left for me to do in this life?   
Did I achieve what I had set in my sights.    
Am I a happy man   or is this sinking sand
Was it all worth it   was it all worth it.
Yeah now hear my story let me tell you about it
We bought a drum kit.   blew my own trumpet.
Played the circuit thought we were perfect
Was it all worth it. giving all my heart and soul and
Staying up all night was it all worth it
Living breathing rock n’roll a godforsaken life
Was it all worth it was it all worth it all these years.
Put down our money without counting the cost  
It didn’t matter if we won - if we lost  
Yes we were vicious. yes we could kill
Yes we were hungry. yes we were brill
INTERLUDE:
We served a purpose like a bloody circus
We were so dandy we love you madly
Was it all worth it. giving all my heart and soul and
Staying up all night was it all worth it
Living breathing rock n’roll a godforsaken life
Was it all worth it was it all worth it all these years.
SOLO:
|--------5-----8p5-----5h8p5-------------trem---------------|
|----------8p5-----8p5---------5---------0\\----------------|
|-8b10-----------------------8---8-7-5v--0\\---7---5p4-5----|
|-----------------------------------------------------------|
|-----------------------------------------------------------|
|-----------------------------------------------------------|
|---------------------------12------------------------------|
|-15b17__r15p13-15----13-15----15-13-12-13----________------|
|------------------------------------------14-12h14p12-14v--|
|-----------------------------------------------------------|
|-----------------------------------------------------------|
|-----------------------------------------------------------|
|------------------/17-|
|-5--------------------|
|---8-5-7-5--------/17-|
|-----------7-5-7------|
|----------------------|
|----------------------|
                          _____                         _________
|-------13--------------1417p14------------15-----------16--19p16---------------19b21--|
|-----13--16b18-------15-------15--------15--18b20----17--17-----17--------17-(20)-----|
|---14--------------14-----------14----16-----------16-------------16----18------------|
|-15--------------16---------------1617-----------18-----------------1819----19--------|
|--------------------------------------------------------------------------------------|
|--------------------------------------------------------------------------------------|
|--19b21---19vv---|
|-----------------|
|-----------------|
|-----------------|
|-----------------|
|-----------------|
We went to Bali saw God and Dali.
So mystic surrealistic
Was it all worth it. giving all my heart and soul and
Staying up all night was it all worth it
Living breathing rock n’roll a godforsaken life
Was it all worth it was it all worth it all these years.
Yes it was a worthwhile experience
It was worth it.
So There it is!  Please don’t forget to rate and post questions or corrections in the
comments.  Thanks!  

Was It All Worth It

Queen

D'autres partitions à jouer…