Accords et paroles Liar Queen

Liar

Queen

-1
+1
Suggestion: +5

(moins de barrés)

Tous les outils
annuler
Change la taille du texte.
NON
OUI
Remplace par des accords plus faciles à jouer.
EN
FR
Affiche les acccords français (Do, Ré, Mi…).
NON
OUI
Seul le bas du texte défile, vous laissant ainsi les accords de départ visibles.
NON
OUI
Certaines partitions n’affichent les accords qu’au début. Cet outil tente de les recopier dans l’ensemble du texte.
Marque le tempo à la vitesse que vous souhaitez.
[Intro]
  
   
|------------------------------------------|
|------------------------------------------|
|-2-----2----2-----2---2---2-4-2-----------|
A|-0--3b---3b---3b--0-----3-----------------|
|------------------------------------------|
|------------------------------------------|
|------------------------------------------|
D|-2----------0-------2--5-5-5-5-5----------|
A|-0---3b---3-----3b--0--0-0-0-0-0----------|
|------------------------------------------|
e|-------------------2--------------------3-|
B|---------------3-----3--------------------|
G|-------2---2/4---0----------2-2-0-2-------|
D|----------------------------2-2-0-2-------|
A|-0-0-0---0-------------3-0--0-0-0-0-0-0---|
|------------------------------------------|
e|-2---------10--------------------5--------|
B|-----------7--7---7/8-5-x-x-7/8--5--------|
G|-----------7--7---7/9-6-x-x-7/9--6--------|
A|---3-0-0-0-----------------------0--------|
|------------------------------------------|
e|---------7------------------7-----9-------|
B|---8-------8---8-----10-------8-----8-----|
G|-----9-------9---9------9-------9-----9---|
D|-------7-----------7------7---------------|
A|------------------------------------------|
E|-0----------------------------------------|
e|-10-----9-----7---------------------------|
B|----8-----8-----8-------------------------|
|------9-----9-----9-----------------------|
|------------------------------------------|
E|--------------------12\-------------------|
[Verse 1]
  I have sinned dear father   father I have sinned        
Try and help me father      
Won’t you let me in?
[Chorus]
Liar!
Nobody believes me
Liar!
Why don’t they leave me alone?
[Verse 2]
Sire I have stolen stolen many times
Raised my voice in anger
When I know I never should
[Chorus]
Liar  oh ev’rybody deceives me
Liar  why don’t you leave me alone  
[Bridge 1]
Liar I have sailed the seas
Liar from Mars to Mercury
Liar I have drunk the wine
Liar time after time
Liar you’re lying to me
Liar you’re lying to me
Father please forgive me
You know you’ll never leave me
Please will you direct me    in the right way
   Liar liar liar liar
  Liar that’s what they keep calling me
  Liar liar liar
[Solo]
      (11)    
      (11)    
[Bridge 2]
Listen are you gonna listen
Mama I’m gonna be your slave
All day long
Mama I’m gonna try behave
All day long
Mama I’m gonna be your slave
All day long
I’m gonna serve you till your dying day
All day long
I’m gonna keep you till your dying day
All day long
I’m gonna kneel down by your side and pray
All day long and pray
All day long and pray
All day long and pray
All day long all day long all day long
All day long all day long all day long
[Instrumental]
   All day long   all day long   all day long     
[Outro]
Liar liar they never ever let you win
Liar liar everything you do is sin
Liar nobody believes you
Liar they bring you down before you begin
Now let me tell you this
Now you know you could be dead before they let you    
[Final]

Liar

Queen

D'autres partitions à jouer…