Accords et paroles Hammer to fall Queen

Hammer to fall

Queen

-1
+1
Suggestion: +5

(supprime les barrés)

Tous les outils
annuler
Change la taille du texte.
NON
OUI
Remplace par des accords plus faciles à jouer.
EN
FR
Affiche les acccords français (Do, Ré, Mi…).
NON
OUI
Seul le bas du texte défile, vous laissant ainsi les accords de départ visibles.
NON
OUI
Certaines partitions n’affichent les accords qu’au début. Cet outil tente de les recopier dans l’ensemble du texte.
Marque le tempo à la vitesse que vous souhaitez.
 Riff 1:
3x                          
E|----------------| |--------------------------|
B|---------2---3--| |--5-5-5---5--/--2--2-2-2--|
G|--2-2-2--2---2--| |--4-4-4---4--/--2--2-2-2--|
D|--2-2-2--2---4--| |--6-6-6---6--/--2--2-2-2--|
A|--0-0-0--0---0--| |--0-0-0---0-----0--0-0-0--|
E|----------------| |--------------------------|
Riff 2:
3x                          
E|----------------| |-----------------------|
B|---------2---3--| |--5-----2--------------|
G|--2-2-2--2---2--| |--4-----2--------2-2---|
D|--2-2-2--2---4--| |--6-----2--------2-2---|
A|--0-0-0--0---0--| |--0-----0---4-/--0-0---|
E|----------------| |-----------------------|
Intro:Riff 1 e 2
Verso 1:
Riff 1:
Here we stand here we fall history don-t care at all
Riff 2:
Make the bed light the light; lady mercy won-t be home tonight
You don-t waste no time at all don-t hear the bell but you answer the
Call. Comes to you and to us all while you-re waiting for the Hammer  
Fall.    
Riff 1:
Verso 2:
Riff 1:
Every night and every day a little piece of you is falling away
Riff 2:
Lift your face the western way; build your muscles as your body decays
Toe your line and play the game let the anaesthetic cover it all
Till one day they call your name you know it-s time for the Hammer to fall
 3x                             
E|-------------------| |-----------------------|
B|---------2---3-xxx-| |--5-----2--------------|
G|--2-2-2--2---2-xxx-| |--4-----2--------2-2---|
D|--2-2-2--2---4-xxx-| |--6-----2--------2-2---|
A|--0-0-0--0---0-xxx-| |--0-----0---4-/--0-0---|
E|-------------------| |-----------------------|
Ponte:
Rich or poor or famous but your truth; it-s all the same Oh No Oh No   
Lock your door but rain is pouring through the windowpane Oh No
Baby now your struggles are in vein
base do Solo:  
| | | | x3   
---tocar várias vezes--   
| | | |x2
| | |
 Solo:(2:34)
-------------------------------------12b14-10-9-10--------------------|
------------10-12b14r12-10-12b14r12-----------------10-12b14-10h12p10-|
--6--6-8-9------------------------------------------------------------|
----------------------------------------------------------------------|
----------------------------------------------------------------------|
----------------------------------------------------------------------|
-17b-17p16p14------------------------------------------------------------------------------------
--------------17-16-14-16-17-------------17-16-14------------------------------------------------
-----------------------------14-14-14b16----------14h15-12---------------------------------------
-----------------------------------------------------------14-12-11-------12-11------12-11--12-11
-------------------------------------------------------------------12-12------12-12-------12-----
-------------------------------------------------------------------------------------------------
-----------|
----16b18--|
-----------|
-----------|
12---------|
-----------|
Verso 3:
You who grew up tall and proud in the shadow of the mushroom cloud
Convinced our voices can-t be heard so we want to scream it louder and louder and louder
What the hell we fighting for?  Just surrender and it won-t hurt us all
Just got time to say your prayers while your waiting for the Hammer to  
Hammer to fall
Riff 2=6x
Give it to me one more time.      
_______________________________________________________
Contribuição: Taino Vieira([email protected])

Hammer to fall

Queen

D'autres partitions à jouer…