Accords et paroles Coming Soon Queen

Coming Soon

Queen

-1
+1
Tous les outils
annuler
Change la taille du texte.
NON
OUI
Remplace par des accords plus faciles à jouer.
EN
FR
Affiche les acccords français (Do, Ré, Mi…).
NON
OUI
Seul le bas du texte défile, vous laissant ainsi les accords de départ visibles.
NON
OUI
Certaines partitions n’affichent les accords qu’au début. Cet outil tente de les recopier dans l’ensemble du texte.
Marque le tempo à la vitesse que vous souhaitez.
Song: Coming Soon
Artist: Queen
Album: The Game (1980)
Provided By Ben Brown
Pretty simple song but super catchy. Enjoy!
Oooo  oooo
Oh Oh Oh Oh
I get some headaches when I hit the heights
Like in the morning after crazy nights
Like some mother in law in her nylon tights
   They’re always they’re always
   They’re always they’re always
You take ’em
The same old babies with the same old toys
The neighbours screaming when the noise annoys
Somebody naggin’ you when you’re out with the boys
Coming soon Coming soon on the outside of the tracks
Yeah yeah yeah
Yeah yeah yeah
[solo:]
| | |
| | |
| | |
|-------5---------5-------------------------------------------------------------|
|-------5-----------------------------------8b10---b9---5---b10-b10-b10r9-5-5-/-|
|-------------------------------------------------------------------------------|
|------------------------7------------------------------------------------------|
|-------------------------------------------------------------------------------|
|-------8---------------------------------------------------------------(0)-------------|
|-10b12---------11108108b---------------8b----------------------------------------------|
|------------------------------------------10-------------------------------------------|
|---------------------------------------------------------------------------------------|
|---------------------------------------------------------------------------------------|
|----15--15--15--15--15--15--15--15----------------------|
|-15b17-b17-b17-b17-b17-b17-b17-b17-b17---r15p1315--13b--|
|--------------------------------------------------------|
|--------------------------------------------------------|
|--------------------------------------------------------|
|--------------------------------------------------------|
|-15b17-b17-b17-b17---r15p12----------------------------------------------------------------|
|---------------------------15b17-15b17---r151215121512151214121312--12------------14b15vvv-|
|------------------------------------------------------------------15--151412--12-----------|
|----------------------------------------------------------------------------14-------------|
|-------------------------------------------------------------------------------------------|
|-------------------------------------------------------------------------------------------|
Coming soon Coming soon on the outside of the tracks
Coming soon Coming soon on the outside of the tracks
Yeah yeah yeah

Coming Soon

Queen

D'autres partitions à jouer…