Accords et paroles Now I'm Here Queen

Now I'm Here

Queen

-1
+1
Suggestion: -2

(supprime les barrés)

Tous les outils
annuler
Change la taille du texte.
NON
OUI
Remplace par des accords plus faciles à jouer.
EN
FR
Affiche les acccords français (Do, Ré, Mi…).
NON
OUI
Seul le bas du texte défile, vous laissant ainsi les accords de départ visibles.
NON
OUI
Certaines partitions n’affichent les accords qu’au début. Cet outil tente de les recopier dans l’ensemble du texte.
Marque le tempo à la vitesse que vous souhaitez.
   Intro:
Primeira Parte
Here I stand (here I stand)
Look around around around around
(Around around around around)
But you won’t see me (you won’t see me)
Now I’m here (now I’m here)
       Now I’m there (now I’m there)
      I’m just a         
  Just a new man
  Yes you made me live again
 Riff
e|------------------------------------------|
B|------------------------------------------|
G|------------------------------------------|
D|-------2---4-2--------7-7----4-4----------|
A|-----------2-0--------5-5-7--2-2-4--------|
E|-0-3-4---0------4-3-0-----5------2--------|
e|------------------------------------------|
B|------------------------------------------|
G|-------------9-----9---9-7----------------|
D|-------------9-----9---9-7-7--------------|
A|-------5-7---7-7-7-7-7-7-5-7--------------|
E|-5-6-7-----0-0-0-0-0-0-0---5--------------|  
Segunda Parte
A baby I was when you took my hand
And the light of the night burned bright        
And the people all stared didn’t understand
But you knew my name on sight
Whatever came of you and me?
Ame_rica’s new bride to be
   Don’t worry baby I’m safe and sound
      Down in the dungeon just peaches and me
  Don’t I love her so?
  Yes she made me live again yeah!
 Riff
e|------------------------------------------|
B|------------------------------------------|
G|------------------------------------------|
D|-------2---4-2--------7-7----4-4----------|
A|-----------2-0--------5-5-7--2-2-4--------|
E|-0-3-4---0------4-3-0-----5------2--------|
e|------------------------------------------|
B|------------------------------------------|
G|-------------9-----9---9-7----------------|
D|-------------9-----9---9-7-7--------------|
A|-------5-7---7-7-7-7-7-7-5-7--------------|
E|-5-6-7-----0-0-0-0-0-0-0---5--------------|
Segunda Parte
A thin moon me in the smoke screen sky
Where the beams of your love light chase
Don’t       move don’t speak don’t feel no pain
With the rain running down my face    
Your matches still light up the sky
And many a tear lives on in my eye     
  Down in the city just hoople and me            
  Don’t I love him so?
Solo       
                   
Whatever came of you and me?
Ame_rica’s new bride to be
Primeira Parte
  Now I’m here (now I’m here)
Think I’ll stay around around around
(Around around around around)
Down in the city just you and me
Riff
e|------------------------------------------|
B|------------------------------------------|
G|------------------------------------------|
D|-------2---4-2--------7-7----4-4----------|
A|-----------2-0--------5-5-7--2-2-4--------|
E|-0-3-4---0------4-3-0-----5------2--------|
e|------------------------------------------|
B|------------------------------------------|
G|-------------9-----9---9-7----------------|
D|-------------9-----9---9-7-7--------------|
A|-------5-7---7-7-7-7-7-7-5-7--------------|
E|-5-6-7-----0-0-0-0-0-0-0---5--------------|  
Final:     

Now I'm Here

Queen

D'autres partitions à jouer…