Accords et paroles It's a hard life Queen

It's a hard life

Queen

-1
+1
Suggestion: -3

(moins de barrés)

Tous les outils
annuler
Change la taille du texte.
NON
OUI
Remplace par des accords plus faciles à jouer.
EN
FR
Affiche les acccords français (Do, Ré, Mi…).
NON
OUI
Seul le bas du texte défile, vous laissant ainsi les accords de départ visibles.
NON
OUI
Certaines partitions n’affichent les accords qu’au début. Cet outil tente de les recopier dans l’ensemble du texte.
Marque le tempo à la vitesse que vous souhaitez.
I don’t want my freedom  
There’s no reason for living  
With a broken heart              
Verse 1:  
This is a tricky situation  
I’ve only got myself to blame  
It’s just a simple fact of life  
it can happen to anyone.  
You win you lose it’s a chance you have to take with love.  
Oh yeah I fell in love and now you say it’s over  
and I’m falling apart...       
Yes It’s a long hard life   
to be true lovers together.  
To love and live for ever in each others hearts.  
It’s a long hard fight to learn to care for each other  
to trust in one another right from the start  
When you’re in love...
Verse 2:  
I try and mend the broken pieces   
I try to fight back the tears   
They say it’s just a state of mind  
But it happens to everyone   
How it hurts (yeah) - deep inside (oh yeah)  
When your love has cut you down to size   
Life is tough - on your own   
Now I’m waiting for something to fall from the skies  
I’m waiting for love  
Ohhh It’s a long hard life   
to be true lovers together.  
To love and live for ever in each others hearts.  
It’s a long hard fight to learn to care for each other  
to trust in one another right from the start  
When you’re in love...
solo:  
(parte do solo)  
Base:  
|             |           |     |      |  
|         |          |      |         |  
|     |              
(2ª parte do solo)  
Base:  
|      |       |      |  
|        |          |           |  
 Solo:  
|------------------------------------|-------------------------------------------------|  
|------------------------------------|-------------------------------------------------|  
|------15b17-----17_r15p13-15-12-----|-----------12b13---12b13------13r12p10-12-8------|  
|-13-----------------------------13--|-13--12h13----------------------------------10---|  
|------------------------------------|-------------------------------------------------|  
|------------------------------------|-------------------------------------------------|  
|-------------------------10---11---13_r-11----------|  
|-----11b13__r11-/-13-----------------------11___/16-|  
|-8-8-15b17__r15-/-17--------------------------------|  
|----------------------------------------------------|  
|----------------------------------------------------|  
|----------------------------------------------------|  
|-15---15b_16---15b16rbrb-15/16-16b18----16--15----------18b_20---18-18------|  
|------------------------------------------------18--16--18b_20---18-18------|  
|--------------------------------------------------------19b_20---19-19------|  
|----------------------------------------------------------------------------|  
|----------------------------------------------------------------------------|  
|----------------------------------------------------------------------------|  
|---------------------|  
|--o solo continua!!--|  
|---------------------|  
|---------------------|  
|---------------------|  
|---------------------|  
Yes it’s a hard life   
In a world that’s filled with sorrow   
There are people searching for love in ev’ry way   
It’s a long hard fight   
But I’ll always live for tomorrow   
I’ll look back on myself and say I did it for love   
Final:  
Yes I did it for love  
Yes I did it for love  
For love     
Oh I did it for love                  
Notas raras de se achar:  
                              
E|--------4----------------8--------------3-----------------------------|  
B|--6-----4--------6-------9------4-------4--------4--------4-----4-----|  
G|--5-----5--------7-------8------5-------3--------3--------5-----5-----|  
D|--6-----6--------8------11------5-------5--------3--------3-----3-----|  
A|--5--------------5----------------------------------------------0-----|  
E|--6-----6-----------------------6----------------3--------4-----------|

It's a hard life

Queen

D'autres partitions à jouer…