Accords et paroles Dead On Time Queen

Dead On Time

Queen

-1
+1
Suggestion: +5

(moins de barrés)

Tous les outils
annuler
Change la taille du texte.
NON
OUI
Remplace par des accords plus faciles à jouer.
EN
FR
Affiche les acccords français (Do, Ré, Mi…).
NON
OUI
Seul le bas du texte défile, vous laissant ainsi les accords de départ visibles.
NON
OUI
Certaines partitions n’affichent les accords qu’au début. Cet outil tente de les recopier dans l’ensemble du texte.
Marque le tempo à la vitesse que vous souhaitez.
Dead on Time - Brian May
  
|------------------------------|
|------------------------------|
D|--------4-2-(2-2)-------------| (x6)
A|------------4---4-2-4-2-0-----|
|-2-2--2-----------------(2-2)-|
[Verse 1]
Fool always jumpin’ never happy where you land.
|----------------------|-------------------------------|
|----------------------|-------------------------------|
|----------------------|------------4-4--2-------------|
A|--------4---4320------|---------4-------------4-3-2-0-|
|----------------(2-2)-|-(2-2)-------------------------|
Fool got my business make your living where you can.
|-------------------------------|------------------------------------|
|-------------------------------|------------------------------------|
|-------------------------------|----------------4-4-2---------------|
A|----------4-------4-3-2-0------|-------------4------------4-2-(0-0)-|
|---------------------------2-2-|-2-2-2-2----------------------------|
Hurry down the highway
Hurry down the road
Hurry past the people starin’
Hurry hurry hurry hurry
[Chorus]
Leave on time leave on time
Never got your ticket but you leave on time
|-------------------------|-----------------------------|
|-------------------------|-----------------------------|
|-------------------------|-----------4-4--2------------|
A|-------4---4-3-2-0-------|---------4-----------4-3-2-0-|
|-------------------(2-2)-|-(2-2)-----------------------|
Leave on time leave on time
Gonna get your ticket but you leave on time
Leave on time leave on time
Put it in your pocket but you never can tell
Leave on time leave on time
Shake that rattle gotta leave on time
Leave on time leave on time
Fight your battle but you leave on time
Leave on time leave on time
Never got a minute no you never got a minute
No you never never got oh no matter
[Verse 2]
Fool got no business hangin’ round and tellin’ lies
Fool you got no reasons but you got no compromise
Stampin’ on the ceilin’ hammering on the walls
N.C.
Gotta get out gotta get out gotta get
N.C.
Oh you know I’m goin’ crazy
[Chorus]
Leave on time leave on time
Gotta get ahead but you leave on time
Leave on time leave on time
Gotta head on ahead but you leave on time
Leave on time leave on time
You’re runnin’ in the red but you never can tell
[Guitar Solo]
(Note: 8m in 4/4  1m in 2/4)
     
Honey honey where’s my money where’s my money
Want to get away want to get away
Leave ya leave ya leave ya
  
Leave on time leave on time
Gotta get rich gonna leave on time
Leave on time leave on time
But you can’t take it with you when you leave on time
Leave on time leave on time
Got to keep yourself alive gotta leave on time
Gotta leave on time leave on time
Dead on time
N.C.
You’re dead

Dead On Time

Queen

D'autres partitions à jouer…