Accords et paroles Sinners Prayer Lady GaGa

Sinners Prayer

Lady GaGa

-1
+1
Tous les outils
annuler
Change la taille du texte.
NON
OUI
Remplace par des accords plus faciles à jouer.
EN
FR
Affiche les acccords français (Do, Ré, Mi…).
NON
OUI
Seul le bas du texte défile, vous laissant ainsi les accords de départ visibles.
NON
OUI
Certaines partitions n’affichent les accords qu’au début. Cet outil tente de les recopier dans l’ensemble du texte.
Marque le tempo à la vitesse que vous souhaitez.
verse 1  
    I came down the mountain
Drunken on a love affair
Got on a pretty little number
N.C
I am wearing steel
It was a hell of a scene at daddy’s feast
Nobody saw it coming but the little red devil in me
He has a funny way saying forever too fast
Don’t get mad can’t blame a tramp
N.C
For something he don’t have
N.C
I get on my knees and beg you
Hear my sinner’s prayer
  I am what I am
And I don’t wanna break the heart of any other man
But you but you
Hear my sinner’s prayer
  It’s the only one I know
It sure as hell don’t rhyme
But it’s as good as good as good as good as gold
e|---------------------------------------------------------------------------|
B|---------------------------------------------------------------------------|
G|---------------------------------------------------------------------------|
D|-----------------------------4-2-4-2-0-------------------------------------|X2
A|---------2---------2-------------------------------------------------------|
E|-0---2-3---0---2-3---0---2-3-----------------------------------------------|
verse 2
I’ve got a baby sister who looks just like me
She wants nothing more than a man to please
  Maybe she’s in too deep
Her love for him ain’t cheap
But it breaks just like a knockoff piece From Fulton Street
  The man’s got a gift for getting what he wants
He’s thirsty when he drinks Gets on a brink and throws her off
e|---------------------------------------------------------------------------|
B|---------------------------------------------------------------------------|
G|---------------------------------------------------------------------------|
D|---------------------------------------------------------------------------|
A|3-2---0--------------------------------------------------------------------|
E|---------3--2-----0---2---3------------------------------------------------|
  I get on my knees and beg you
Hear my sinner’s prayer
  I am what I am
And I don’t wanna break the heart of any other man
But you but you
Hear my sinner’s prayer
  It’s the only one I know
It sure as hell don’t rhyme
But it’s as good as good as good as good as gold
If you find something wrong or not the most accurate please let me know :)

Sinners Prayer

Lady GaGa

D'autres partitions à jouer…