Accords et paroles Puisque tu pars Jean-Jacques Goldman

Puisque tu pars

Jean-Jacques Goldman

-1
+1
Suggestion: -5

(moins de barrés)

Tous les outils
annuler
Change la taille du texte.
NON
OUI
Remplace par des accords plus faciles à jouer.
EN
FR
Affiche les acccords français (Do, Ré, Mi…).
NON
OUI
Seul le bas du texte défile, vous laissant ainsi les accords de départ visibles.
NON
OUI
Certaines partitions n’affichent les accords qu’au début. Cet outil tente de les recopier dans l’ensemble du texte.
Marque le tempo à la vitesse que vous souhaitez.
 Puisque l'ombre gagne
 Puisqu'il n'est pas de montagne
 Au-delà des vents plus haute que les marches de l'oubli
 Puisqu'il faut apprendre
 A défaut de le comprendre
 A rêver nos désirs et vivre des "ainsi soit-il"
 Et puisque tu penses
 Comme une intime évidence
 Que parfois même tout donner n'est pas forcément suffire
 Puisque c'est ailleurs
 Qu'ira mieux battre ton coeur
 Et puisque nous t'aimons trop pour te retenir
 Puisque tu pars
               
e|----12-9-10----10-9-9-7-7-----15-14-14-12-12-10-10-9h10-
B|-10----------7------------/12---------------------------
G|--------------------------------------------------------
D|--------------------------------------------------------
A|--------------------------------------------------------
E|--------------------------------------------------------
 Que les vents te mènent où d'autres âmes plus belles
 Sauront t'aimer mieux que nous puisque l'on ne peut t'aimer plus
 Que la vie t'apprenne
 Mais que tu restes le même
 Si tu te trahissais nous t'aurions tout à fait perdu
 Garde cette chance  que nous t'envions en silence
 Cette force de penser que le plus beau reste à venir
 Et loin de nos villes
 Comme octobre l'est d'avril
 Sache qu'ici reste de toi comme une empreinte indélébile  
 Sans drame sans larmes pauvres et dérisoires armes
 Parce qu'il est des douleurs qui ne pleurent qu'a l'intérieur
 Puisque ta maison
 Aujourd'hui c'est l'horizon
 Dans ton exil essaie d'apprendre a revenir
 Mais pas trop tard
e|---10-7-8-----8-7-7-5-5-----13-12-12-10-12-8-8-7h8--
B|-8---------5------------/10-------------------------
G|----------------------------------------------------
D|----------------------------------------------------
A|----------------------------------------------------
E|----------------------------------------------------
 Reprise 01 : (3x)
 Dans ton histoire
 Garde en mémoire
 Notre au revoir
 Puisque tu pars     
 J'aurais pu fermer oublier toutes ces portes
 Tout quitter sur un simple geste mais tu ne l'as pas fait
 J'aurais pu donner tant d'amour et tant de force
 Mais tout ce que je pouvais ça n'était pas encore assez
 Reprise 02 : (2x)
 Pas assez pas assez pas assez                                
Reprise01 :(6x)>OutroavecSolode guitare----------------------12-13-15-15b-15b
e|----------------------------|----------------------15b-13-13-13-12-13-15-----------------
B|-----------------------8-8--|--------13-15b-15b-15---------------------------------------
G|-15-5-5-5b--5-5-5b--5-5---5-|-5/12-14----------------------------------------------------
D|----------------------------|------------------------------------------------------------
-------------------------------------------------------------------------------------------
e|-15--15-15-15-13-13--12-12-13-12b---------------15-15-15-15----15---15------15-----------
B|---------------------------------15-13-15-15b-15-----------15b---15b-15b-15b--15b-15b-15-
G|-----------------------------------------------------------------------------------------
D|-----------------------------------------------------------------------------------------
-------------------------------------------------------------------------------------------
-------------------------------------------------------------------------------------------
e|-20b-20b-20b-22b-22b-20-22-20-19/20--19-17----17---------15/17--15-17-15-----------------
B|-------------------------------------------20----20b-20b-----------------18--17-17-17--15
G|-----------------------------------------------------------------------------------------
D|-----------------------------------------------------------------------------------------
-------------------------------------------------------------------------------------------
-------------------------------------------------------------------------------------------
e|--------15/17--15-17-15-------------------------15---------------------------------------
B|------------------------18--17-18-17-15------------18-17-15-13/15b-13----13-/-15-13-(13)-
G|-17-16----------------------------------17--16------------------------14----------------
D|-----------------------------------------------------------------------------------------
-------------------------------------------------------------------------------------------
-------------------------------------------------------------------------------------------
e|-----------------------------------------------------------------------------------------
B|-(13)--15b------15--13-12------------------------------------------12-13-15-13---12------
G|-------------14-----------14-12-14-12---------------------12-13-14-------------14--14-12-
D|--------------------------------------14-13-12---12-13-14--------------------------------
A|----------------------------------------------------15-----------------------------------
-------------------------------------------------------------------------------------------
e|-----------15-----15-----15-----------------------15-17-19-20-20b-20b---20--|
B|----13-15b----15b----15b----15b-15b-13---15-17-18---------------------------|
G|-14-------------------------------------------------------------------------|
D|----------------------------------------------------------------------------|
-------------------------------------------------------------------------------
-------------------------------------------------------------------------------

Puisque tu pars

Jean-Jacques Goldman

D'autres partitions à jouer…