Accords et paroles The Girl From Yesterday Eagles

The Girl From Yesterday

Eagles

-1
+1
Tous les outils
annuler
Change la taille du texte.
NON
OUI
Remplace par des accords plus faciles à jouer.
EN
FR
Affiche les acccords français (Do, Ré, Mi…).
NON
OUI
Seul le bas du texte défile, vous laissant ainsi les accords de départ visibles.
NON
OUI
Certaines partitions n’affichent les accords qu’au début. Cet outil tente de les recopier dans l’ensemble du texte.
Marque le tempo à la vitesse que vous souhaitez.
   Introdução:            
Verso:  
It wasn’t reall sad the way they said good-bye  
Or maybe it just hurt so bad she couldn’t cry  
He packed his things walked out the door and drove away  
And she became the girl from yesterday  
He took a plane across the sea   
To some foreign land  
She stayed at home and tried so hard to understand  
How someone who had been so close could be so far away  
And she became the girl from yesterday  
She doesn’t know what’s right  
She doesn’t know what’s wrong  
She only Knows the pain that comes from waiting for so long  
And she doesn’t count the teardrops  
That she’s cried while he’s away   
Because she knows deep in her heart  
That he’ll be back someday  
 Solo:  
e|---------0------------------------------3-3---2-2-0-2-3-  
B|-0-1-3-3---3-1-0---------------1h3p1-0------3-----------  
G|------------------0-2-0-0-------------------------------  
D|--------------------------0-2---------------------------  
A|--------------------------------------------------------  
E|--------------------------------------------------------  
The light’s on in the window; she’s waiting by the phone  
Talking to a memory that’s never coming home  
She dreams of his returnig and the things that he might say  
But she’ll always be the girl from yesterday  
Yeah she’ll always be the girl from yesterday.  
e|---------------------  
B|---------------------  
G|-0h2/12-12~...-------  
D|---------------------  
A|---------------------  
E|---------------------  
_______________________________________________________  
Contribuição: Filyp Lima([email protected])

The Girl From Yesterday

Eagles

D'autres partitions à jouer…